Nauka gry na gitarze/Gitara prowadząca

Z Wikibooks, biblioteki wolnych podręczników.
Przejdź do nawigacji Przejdź do wyszukiwania

W tym rozdziale będzie obowiązywać standardowy zapis tabulaturowy.

Rozgrzewka - "Pająk"[edytuj]

       _ ^ _ ^ _ ^ _ ^   _ ^ _ ^ _ ^ _ ^   _ ^ _ ^ _ ^ _ ^ 
    E|-----------------|-----------------|---------1-2-3-4-|
    B|-----------------|-----------------|-1-2-3-4---------|
    G|-----------------|---------1-2-3-4-|-----------------|
    D|-----------------|-1-2-3-4---------|-----------------|
    A|---------1-2-3-4-|-----------------|-----------------|
    E|-1-2-3-4---------|-----------------|-----------------|
       _ ^ _ ^ _ ^ _ ^   _ ^ _ ^ _ ^ _ ^   _ ^ _ ^ _ ^ _ ^ 
    E|-5-4-3-2---------|-----------------|-----------------|
    B|---------5-4-3-2-|-----------------|-----------------|
    G|-----------------|-5-4-3-2---------|-----------------|
    D|-----------------|---------5-4-3-2-|-----------------|
    A|-----------------|-----------------|-5-4-3-2---------|
    E|-----------------|-----------------|---------5-4-3-2-|

I bez zatrzymywania posuwamy się naprzód:

       _ ^ _ ^ _ ^ _ ^   _ ^ _ ^ _ ^ _ ^   _ ^ _ ^ _ ^ _ ^ 
    E|-----------------|-----------------|---------3-4-5-6-|
    B|-----------------|-----------------|-3-4-5-6---------|
    G|-----------------|---------3-4-5-6-|-----------------|
    D|-----------------|-3-4-5-6---------|-----------------|
    A|---------3-4-5-6-|-----------------|-----------------|
    E|-3-4-5-6---------|-----------------|-----------------|

Przesuwamy się tak aż dotrzemy palcem wskazującym co najmniej do 12 progu, a najlepiej dalej. Odwracamy kierunek ruchu i wracamy do 1 progu.

Pentatonika[edytuj]

Pentatonika jest skalą 5stopniową, czyli zawiera 5 dzwięków z oktawy i jest uproszczoną wersją skali 7stopniowej czyli heptatonicznej. przykładową i najbardziej popularną skalą pentatoniczną jest a-moll, która jest uproszczoną wersją skali C-dur. składa się z dźwięków A,C,D,E,G. przykład:
e|------------------------------------------5---8---5-------------------------------------------||
H|----------------------------------5---8---------------8---5-----------------------------------||
G|--------------------------5---7-------------------------------7---5---------------------------||
D|------------------5---7-----------------------------------------------7---5-------------------||
A|----------5---7---------------------------------------------------------------7---5-----------||
E|--5---8-------------------------------------------------------------------------------8---5---||