Nauka gry na gitarze/Granie kostką

Z Wikibooks, biblioteki wolnych podręczników.
Przejdź do nawigacji Przejdź do wyszukiwania

Granie kostką (piórkiem)[edytuj]

Dłoń trzymająca piórko złożona jest w pięść, piórko przytrzymujesz między kciukiem a boczną stroną palca wskazującego. Warianty:

Niektórzy gitarzyści trzymają piórko trzema opuszkami: kciuka, palca wskazującego i środkowego.

Inni zginają tylko palec wskazujący i kciuk, pozostałe palce pozostawiają wyprostowane (taki "pióropusz" może na scenie wyglądać efektownie).

Wyprostowane palce prawej dłoni nie są błędem, jeśli tylko nie są usztywnione (utrudnia to grę) lub jeśli nie opierają się o pudło rezonansowe (na początku może wydawać się to ułatwieniem, później trudno jest się tego nawyku pozbyć).

Piórko uderza strunę pod pewnym optymalnym kątem (ok. 45 stopni), który należy samemu eksperymentalnie ustalić - w innym przypadku struna stawia zbytni opór i gra się niewygodnie. Ręka nie powinna być zbytnio usztywniona w przegubie - nie chodzi o to, by zerwać strunę: im większy opór, tym głośniejszy dźwięk ale i ostrzejsza barwa (i tym szybciej zmęczy się ręka!). Grać należy zatem ręką odpowiednio rozluźnioną. Piórko powinno po wydobyciu dźwięku opaść na następną strunę i na niej się zatrzymać (oprzeć).


Kostkowanie wahadłowe (pendulum picking)[edytuj]

Akord to współbrzmienie jednocześnie co najmniej trzech dźwięków. Na gitarze zazwyczaj gra się ich naraz więcej ze względu na to, że mamy do dyspozycji aż sześć strun. Zagranie akordu polega na uderzaniu (omiataniu kostką) strun z góry na dół (od struny E basowej do E wiolinowej) lub z dołu do góry (od E wiolinowej do E basowej). Te dwa ruchy wykonuje się naprzemiennie w stałym tempie niezależnie od tego, czy wydobywa się dźwięki, czy nie( wtedy następuje "pusty ruch"). Najważniejsze w tej technice jest zachowanie stałości wahadłowego ruchu, nie wolno się zatrzymywać - najlepiej ćwiczyć tą technikę z metronomem lub z automatem perkusyjnym.

Zalety "pendulum picking" to dobra orientacja w rytmice utworu (ile ruchów ręki oddziela kolejne akordy), lepsze wyczucie tempa prócz tego dodatkowe ruchy pozwalają na "zmianę kroku", czyli na wykonanie kilku dźwięków lub akordów w górę (up-up-up z czego "-" oznacza "pusty ruch"). W dodatku ten sam akord grany "pod górę" (up), brzmi inaczej, ostrzej, niż ten sam akord zagrany zaczynając od strun basowych (down).

Ważne jest żeby na początek nauczyć się płynnie i "lekko" uderzać struny naprzemiennie dół-góra. Poniżej ćwiczenie, które pozwola rozwijać tą umiejętność:

        _  ^  _  ^  _  ^  _  ^   _  ^  _  ^  _  ^  _  ^ 
     E|-0--0--0--0--0--0--0--0-|-0--0--0--0--0--0--0--0-|
     B|-0--0--0--0--0--0--0--0-|-0--0--0--0--0--0--0--0-|
     G|-0--0--0--0--0--0--0--0-|-0--0--0--0--0--0--0--0-|
     D|-2--2--2--2--2--2--2--2-|-2--2--2--2--2--2--2--2-|
     A|-2--2--2--2--2--2--2--2-|-3--3--3--3--3--3--3--3-|
     E|-0--0--0--0--0--0--0--0-|-0--0--0--0--0--0--0--0-|
        _  ^  _  ^  _  ^  _  ^   _  ^  _  ^  _  ^  _  ^ 
     E|-0--0--0--0--0--0--0--0-|-0--0--0--0--0--0--0--0-|
     B|-0--0--0--0--0--0--0--0-|-0--0--0--0--0--0--0--0-|
     G|-0--0--0--0--0--0--0--0-|-2--2--2--2--2--2--2--2-|
     D|-0--0--0--0--0--0--0--0-|-0--0--0--0--0--0--0--0-|
     A|-2--2--2--2--2--2--2--2-|-x--x--x--x--x--x--x--x-|
     E|-3--3--3--3--3--3--3--3-|-2--2--2--2--2--2--2--2-|

Oznaczenia:

 -           - uderzenie z góry na dół
 ^           - uderzenie z dołu do góry
 0           - zagraj na pustej strunie
 1,2,3 itd.  - zagraj na progu 1,2,3 itd.
 x           - stłum tę strunę przez przyłożenie do niej palca ale bez dociskania
 

Frazę należy grać wolnym tempem i powtarzać od początku bez zatrzymywania się.

Porównaj to ćwiczenie z utworem "Zombie" The Cranberries.

Kostkowanie naprzemienne (alternate picking)[edytuj]

Techniką powszechnie wykorzystywaną w grze na gitarze akustycznej bądź elektrycznej przy użyciu piórka (inaczej kostki) jest kostkowanie naprzemienne. Jest to technika podobna do pendulum picking, tylko że dotyczy grania na pojedynczych strunach. Piórkiem należy uderzać strunę w górę (w stronę sufitu) lub w dół (w stronę podłogi) cały czas naprzemiennie, za każdym uderzeniem wydobywając jeden dźwięk. Taki sposób wydobywania dźwięków oszczędza ruchy prawej ręki, co pozwala rozwinąć dużą szybkość gry, precyzję ruchów oraz wyczucie rytmiki utworu. Dlatego warto aby każdy gitarzysta miał bardzo dobrze opanowaną tą technikę. Nie oznacza to, że należy wystrzegać się uderzania tylko w jednym kierunku, w niektórych przypadkach może być to technicznie bądź artystycznie uzasadnione. Warto jednak by podstawą gry był alternate picking.

Poniższe ćwiczenie może być podstawą do rozwijania gry kostkowaniem naprzemiennym a na późniejszym etapie do grania solówek. Oprócz tego, dla początkujących jest dobrym ćwiczeniem na "rozciąganie" i wzmacnianie palców lewej dłoni.

        _ ^ _ ^ _ ^ _ ^   _ ^ _ ^ _ ^ _ ^   _ ^ _ ^ _ ^ _ ^ 
     E|-----------------|-----------------|---------5-6-7-8-|
     B|-----------------|-----------------|-5-6-7-8---------|
     G|-----------------|---------5-6-7-8-|-----------------|
     D|-----------------|-5-6-7-8---------|-----------------|
     A|---------5-6-7-8-|-----------------|-----------------|
     E|-5-6-7-8---------|-----------------|-----------------|
        _ ^ _ ^ _ ^ _ ^   _ ^ _ ^ _ ^ _ ^   _ ^ _ ^ _ ^ _ ^ 
     E|-8-7-6-5---------|-----------------|-----------------|
     B|---------8-7-6-5-|-----------------|-----------------|
     G|-----------------|-8-7-6-5---------|-----------------|
     D|-----------------|---------8-7-6-5-|-----------------|
     A|-----------------|-----------------|-8-7-6-5---------|
     E|-----------------|-----------------|---------8-7-6-5-|

Frazę należy grać wolnym tempem i powtarzać od początku bez zatrzymywania się. Jeśli masz trudności z zagraniem tego fragmentu możesz grać też od 7 progu w górę. Potem stopniowo można przejść do gry od 5 progu, by w końcu również grać od progu 1. Kiedy już dobrze opanujesz to ćwiczenie może ono być dobrym pomysłem na rozgrzewkę przed grą.